ISO-10303-21;
HEADER;
FILE_DESCRIPTION (( 'STEP AP203' ),
    '1' );
FILE_NAME ('QB-CTZQWP-50.8-894-M.STEP',
    '2020-12-24T01:53:23',
    ( '' ),
    ( '' ),
    'SwSTEP 2.0',
    'SolidWorks 2020',
    '' );
FILE_SCHEMA (( 'CONFIG_CONTROL_DESIGN' ));
ENDSEC;

DATA;
#1 = ORIENTED_EDGE ( 'NONE', *, *, #59, .T. ) ;
#2 = VERTEX_POINT ( 'NONE', #77 ) ;
#3 = PRODUCT_DEFINITION ( 'UNKNOWN', '', #123, #28 ) ;
#4 = DIRECTION ( 'NONE',  ( 0.000000000000000000, 0.000000000000000000, 1.000000000000000000 ) ) ;
#5 = CARTESIAN_POINT ( 'NONE',  ( 3.000000000000002665, 3.110602869834276865E-15, -25.39999999999999858 ) ) ;
#6 = LOCAL_TIME ( 9, 53, 23.00000000000000000, #163 ) ;
#7 = DIRECTION ( 'NONE',  ( -1.000000000000000000, -0.000000000000000000, -0.000000000000000000 ) ) ;
#8 = SECURITY_CLASSIFICATION_LEVEL ( 'unclassified' ) ;
#9 = ORGANIZATION ( 'UNSPECIFIED', 'UNSPECIFIED', '' ) ;
#10 = CALENDAR_DATE ( 2020, 24, 12 ) ;
#11 = DIRECTION ( 'NONE',  ( 1.000000000000000000, 0.000000000000000000, 0.000000000000000000 ) ) ;
#12 = DATE_AND_TIME ( #108, #6 ) ;
#13 = ORIENTED_EDGE ( 'NONE', *, *, #158, .T. ) ;
#14 = CARTESIAN_POINT ( 'NONE',  ( -3.000000000000000000, 3.110602869834276865E-15, -25.39999999999999858 ) ) ;
#15 = LOCAL_TIME ( 9, 53, 23.00000000000000000, #110 ) ;
#16 = AXIS2_PLACEMENT_3D ( 'NONE', #173, #148, #88 ) ;
#17 = DIRECTION ( 'NONE',  ( -1.000000000000000000, -0.000000000000000000, -0.000000000000000000 ) ) ;
#18 = LINE ( 'NONE', #14, #119 ) ;
#19 = AXIS2_PLACEMENT_3D ( 'NONE', #67, #156, #33 ) ;
#20 = CC_DESIGN_PERSON_AND_ORGANIZATION_ASSIGNMENT ( #41, #91, ( #38 ) ) ;
#21 = CALENDAR_DATE ( 2020, 24, 12 ) ;
#22 = ADVANCED_FACE ( 'NONE', ( #170 ), #54, .T. ) ;
#23 = DATE_AND_TIME ( #10, #143 ) ;
#24 = EDGE_CURVE ( 'NONE', #73, #61, #144, .T. ) ;
#25 = PERSON_AND_ORGANIZATION ( #50, #9 ) ;
#26 = CIRCLE ( 'NONE', #132, 25.39999999999999858 ) ;
#27 = CC_DESIGN_APPROVAL ( #48, ( #38 ) ) ;
#28 = DESIGN_CONTEXT ( 'detailed design', #46, 'design' ) ;
#29 = AXIS2_PLACEMENT_3D ( 'NONE', #174, #70, #11 ) ;
#30 = DIRECTION ( 'NONE',  ( -1.000000000000000000, -0.000000000000000000, -0.000000000000000000 ) ) ;
#31 = CARTESIAN_POINT ( 'NONE',  ( 3.000000000000002665, 0.000000000000000000, 25.39999999999999858 ) ) ;
#32 = CYLINDRICAL_SURFACE ( 'NONE', #16, 25.39999999999999858 ) ;
#33 = DIRECTION ( 'NONE',  ( 0.000000000000000000, 0.000000000000000000, 1.000000000000000000 ) ) ;
#34 = FACE_OUTER_BOUND ( 'NONE', #155, .T. ) ;
#35 = MECHANICAL_CONTEXT ( 'NONE', #131, 'mechanical' ) ;
#36 = COORDINATED_UNIVERSAL_TIME_OFFSET ( 8, 0, .AHEAD. ) ;
#37 = PERSON_AND_ORGANIZATION_ROLE ( 'design_supplier' ) ;
#38 = SECURITY_CLASSIFICATION ( '', '', #8 ) ;
#39 = AXIS2_PLACEMENT_3D ( 'NONE', #89, #117, #52 ) ;
#40 = PERSON_AND_ORGANIZATION_ROLE ( 'creator' ) ;
#41 = PERSON_AND_ORGANIZATION ( #50, #9 ) ;
#42 = CC_DESIGN_DATE_AND_TIME_ASSIGNMENT ( #23, #80, ( #38 ) ) ;
#43 = CC_DESIGN_SECURITY_CLASSIFICATION ( #38, ( #123 ) ) ;
#44 = LOCAL_TIME ( 9, 53, 23.00000000000000000, #72 ) ;
#45 = SHAPE_DEFINITION_REPRESENTATION ( #137, #106 ) ;
#46 = APPLICATION_CONTEXT ( 'configuration controlled 3d designs of mechanical parts and assemblies' ) ;
#47 = AXIS2_PLACEMENT_3D ( 'NONE', #64, #7, #157 ) ;
#48 = APPROVAL ( #58, 'UNSPECIFIED' ) ;
#49 = DIRECTION ( 'NONE',  ( -1.000000000000000000, 0.000000000000000000, -0.000000000000000000 ) ) ;
#50 = PERSON ( 'UNSPECIFIED', 'UNSPECIFIED', 'UNSPECIFIED', ('UNSPECIFIED'), ('UNSPECIFIED'), ('UNSPECIFIED') ) ;
#51 = DIRECTION ( 'NONE',  ( 0.000000000000000000, 0.000000000000000000, 1.000000000000000000 ) ) ;
#52 = DIRECTION ( 'NONE',  ( 0.000000000000000000, 0.000000000000000000, -1.000000000000000000 ) ) ;
#53 = ADVANCED_FACE ( 'NONE', ( #34 ), #135, .F. ) ;
#54 = CYLINDRICAL_SURFACE ( 'NONE', #19, 25.39999999999999858 ) ;
#55 = LOCAL_TIME ( 9, 53, 23.00000000000000000, #109 ) ;
#56 = APPROVAL_STATUS ( 'not_yet_approved' ) ;
#57 = APPLICATION_PROTOCOL_DEFINITION ( 'international standard', 'config_control_design', 1994, #46 ) ;
#58 = APPROVAL_STATUS ( 'not_yet_approved' ) ;
#59 = EDGE_CURVE ( 'NONE', #2, #146, #26, .T. ) ;
#60 = CC_DESIGN_PERSON_AND_ORGANIZATION_ASSIGNMENT ( #93, #141, ( #123 ) ) ;
#61 = VERTEX_POINT ( 'NONE', #31 ) ;
#62 = DIRECTION ( 'NONE',  ( -1.000000000000000000, -0.000000000000000000, -0.000000000000000000 ) ) ;
#63 = CC_DESIGN_DATE_AND_TIME_ASSIGNMENT ( #164, #79, ( #3 ) ) ;
#64 = CARTESIAN_POINT ( 'NONE',  ( -3.000000000000002665, 0.000000000000000000, 0.000000000000000000 ) ) ;
#65 = VECTOR ( 'NONE', #161, 1000.000000000000000 ) ;
#66 = ORIENTED_EDGE ( 'NONE', *, *, #59, .F. ) ;
#67 = CARTESIAN_POINT ( 'NONE',  ( -3.000000000000000000, 0.000000000000000000, 0.000000000000000000 ) ) ;
#68 = PERSON_AND_ORGANIZATION ( #50, #9 ) ;
#69 = CIRCLE ( 'NONE', #47, 25.39999999999999858 ) ;
#70 = DIRECTION ( 'NONE',  ( 0.000000000000000000, 0.000000000000000000, 1.000000000000000000 ) ) ;
#71 = PERSON_AND_ORGANIZATION ( #50, #9 ) ;
#72 = COORDINATED_UNIVERSAL_TIME_OFFSET ( 8, 0, .AHEAD. ) ;
#73 = VERTEX_POINT ( 'NONE', #5 ) ;
#74 = ORIENTED_EDGE ( 'NONE', *, *, #116, .T. ) ;
#75 = CARTESIAN_POINT ( 'NONE',  ( -3.000000000000000000, 0.000000000000000000, 25.39999999999999858 ) ) ;
#76 = ADVANCED_FACE ( 'NONE', ( #102 ), #32, .T. ) ;
#77 = CARTESIAN_POINT ( 'NONE',  ( -3.000000000000002665, 3.110602869834276865E-15, -25.39999999999999858 ) ) ;
#78 =( LENGTH_UNIT ( ) NAMED_UNIT ( * ) SI_UNIT ( .MILLI., .METRE. ) );
#79 = DATE_TIME_ROLE ( 'creation_date' ) ;
#80 = DATE_TIME_ROLE ( 'classification_date' ) ;
#81 = AXIS2_PLACEMENT_3D ( 'NONE', #120, #30, #51 ) ;
#82 = EDGE_CURVE ( 'NONE', #73, #2, #18, .T. ) ;
#83 = DATE_AND_TIME ( #175, #44 ) ;
#84 = ORIENTED_EDGE ( 'NONE', *, *, #82, .T. ) ;
#85 = CARTESIAN_POINT ( 'NONE',  ( -3.000000000000002665, 0.000000000000000000, 0.000000000000000000 ) ) ;
#86 = EDGE_LOOP ( 'NONE', ( #149, #1 ) ) ;
#87 = CC_DESIGN_PERSON_AND_ORGANIZATION_ASSIGNMENT ( #167, #165, ( #111 ) ) ;
#88 = DIRECTION ( 'NONE',  ( 0.000000000000000000, 0.000000000000000000, 1.000000000000000000 ) ) ;
#89 = CARTESIAN_POINT ( 'NONE',  ( -3.000000000000001332, 25.39999999999999858, 0.000000000000000000 ) ) ;
#90 = PRODUCT_RELATED_PRODUCT_CATEGORY ( 'detail', '', ( #111 ) ) ;
#91 = PERSON_AND_ORGANIZATION_ROLE ( 'classification_officer' ) ;
#92 = PERSON_AND_ORGANIZATION ( #50, #9 ) ;
#93 = PERSON_AND_ORGANIZATION ( #50, #9 ) ;
#94 = CC_DESIGN_APPROVAL ( #115, ( #3 ) ) ;
#95 = CALENDAR_DATE ( 2020, 24, 12 ) ;
#96 = CC_DESIGN_APPROVAL ( #101, ( #123 ) ) ;
#97 = EDGE_CURVE ( 'NONE', #146, #2, #69, .T. ) ;
#98 = ORIENTED_EDGE ( 'NONE', *, *, #158, .F. ) ;
#99 = CC_DESIGN_PERSON_AND_ORGANIZATION_ASSIGNMENT ( #25, #40, ( #3 ) ) ;
#100 =( NAMED_UNIT ( * ) PLANE_ANGLE_UNIT ( ) SI_UNIT ( $, .RADIAN. ) );
#101 = APPROVAL ( #151, 'UNSPECIFIED' ) ;
#102 = FACE_OUTER_BOUND ( 'NONE', #129, .T. ) ;
#103 = ORIENTED_EDGE ( 'NONE', *, *, #97, .F. ) ;
#104 = DIRECTION ( 'NONE',  ( -1.000000000000000000, -0.000000000000000000, -0.000000000000000000 ) ) ;
#105 = LINE ( 'NONE', #75, #65 ) ;
#106 = ADVANCED_BREP_SHAPE_REPRESENTATION ( 'QB-CTZQWP-50.8-894-M', ( #142, #29 ), #124 ) ;
#107 =( NAMED_UNIT ( * ) SI_UNIT ( $, .STERADIAN. ) SOLID_ANGLE_UNIT ( ) );
#108 = CALENDAR_DATE ( 2020, 24, 12 ) ;
#109 = COORDINATED_UNIVERSAL_TIME_OFFSET ( 8, 0, .AHEAD. ) ;
#110 = COORDINATED_UNIVERSAL_TIME_OFFSET ( 8, 0, .AHEAD. ) ;
#111 = PRODUCT ( 'QB-CTZQWP-50.8-894-M', 'QB-CTZQWP-50.8-894-M', '', ( #35 ) ) ;
#112 = APPROVAL_PERSON_ORGANIZATION ( #71, #48, #139 ) ;
#113 = AXIS2_PLACEMENT_3D ( 'NONE', #147, #104, #160 ) ;
#114 = APPLICATION_PROTOCOL_DEFINITION ( 'international standard', 'config_control_design', 1994, #131 ) ;
#115 = APPROVAL ( #56, 'UNSPECIFIED' ) ;
#116 = EDGE_CURVE ( 'NONE', #61, #146, #105, .T. ) ;
#117 = DIRECTION ( 'NONE',  ( 1.000000000000000000, 0.000000000000000000, 0.000000000000000000 ) ) ;
#118 = EDGE_LOOP ( 'NONE', ( #130, #133, #74, #66 ) ) ;
#119 = VECTOR ( 'NONE', #62, 1000.000000000000000 ) ;
#120 = CARTESIAN_POINT ( 'NONE',  ( 3.000000000000002665, 0.000000000000000000, 0.000000000000000000 ) ) ;
#121 = FACE_OUTER_BOUND ( 'NONE', #86, .T. ) ;
#122 = APPROVAL_ROLE ( '' ) ;
#123 = PRODUCT_DEFINITION_FORMATION_WITH_SPECIFIED_SOURCE ( 'ANY', '', #111, .NOT_KNOWN. ) ;
#124 =( GEOMETRIC_REPRESENTATION_CONTEXT ( 3 ) GLOBAL_UNCERTAINTY_ASSIGNED_CONTEXT ( ( #127 ) ) GLOBAL_UNIT_ASSIGNED_CONTEXT ( ( #78, #100, #107 ) ) REPRESENTATION_CONTEXT ( 'NONE', 'WORKASPACE' ) );
#125 = APPROVAL_ROLE ( '' ) ;
#126 = PERSON_AND_ORGANIZATION ( #50, #9 ) ;
#127 = UNCERTAINTY_MEASURE_WITH_UNIT (LENGTH_MEASURE( 1.000000000000000082E-05 ), #78, 'distance_accuracy_value', 'NONE');
#128 = ADVANCED_FACE ( 'NONE', ( #121 ), #172, .F. ) ;
#129 = EDGE_LOOP ( 'NONE', ( #13, #84, #103, #169 ) ) ;
#130 = ORIENTED_EDGE ( 'NONE', *, *, #82, .F. ) ;
#131 = APPLICATION_CONTEXT ( 'configuration controlled 3d designs of mechanical parts and assemblies' ) ;
#132 = AXIS2_PLACEMENT_3D ( 'NONE', #85, #17, #4 ) ;
#133 = ORIENTED_EDGE ( 'NONE', *, *, #24, .T. ) ;
#134 = CC_DESIGN_PERSON_AND_ORGANIZATION_ASSIGNMENT ( #68, #37, ( #123 ) ) ;
#135 = PLANE ( 'NONE',  #153 ) ;
#136 = CARTESIAN_POINT ( 'NONE',  ( 3.000000000000001332, 25.39999999999999858, 0.000000000000000000 ) ) ;
#137 = PRODUCT_DEFINITION_SHAPE ( 'NONE', 'NONE',  #3 ) ;
#138 = APPROVAL_DATE_TIME ( #12, #101 ) ;
#139 = APPROVAL_ROLE ( '' ) ;
#140 = DATE_AND_TIME ( #95, #15 ) ;
#141 = PERSON_AND_ORGANIZATION_ROLE ( 'creator' ) ;
#142 = MANIFOLD_SOLID_BREP ( 'Ðý×', #159 ) ;
#143 = LOCAL_TIME ( 9, 53, 23.00000000000000000, #36 ) ;
#144 = CIRCLE ( 'NONE', #81, 25.39999999999999858 ) ;
#145 = ORIENTED_EDGE ( 'NONE', *, *, #24, .F. ) ;
#146 = VERTEX_POINT ( 'NONE', #150 ) ;
#147 = CARTESIAN_POINT ( 'NONE',  ( 3.000000000000002665, 0.000000000000000000, 0.000000000000000000 ) ) ;
#148 = DIRECTION ( 'NONE',  ( -1.000000000000000000, -0.000000000000000000, -0.000000000000000000 ) ) ;
#149 = ORIENTED_EDGE ( 'NONE', *, *, #97, .T. ) ;
#150 = CARTESIAN_POINT ( 'NONE',  ( -3.000000000000002665, 0.000000000000000000, 25.39999999999999858 ) ) ;
#151 = APPROVAL_STATUS ( 'not_yet_approved' ) ;
#152 = APPROVAL_PERSON_ORGANIZATION ( #126, #115, #125 ) ;
#153 = AXIS2_PLACEMENT_3D ( 'NONE', #136, #49, #171 ) ;
#154 = APPROVAL_PERSON_ORGANIZATION ( #92, #101, #122 ) ;
#155 = EDGE_LOOP ( 'NONE', ( #98, #145 ) ) ;
#156 = DIRECTION ( 'NONE',  ( -1.000000000000000000, -0.000000000000000000, -0.000000000000000000 ) ) ;
#157 = DIRECTION ( 'NONE',  ( 0.000000000000000000, 0.000000000000000000, 1.000000000000000000 ) ) ;
#158 = EDGE_CURVE ( 'NONE', #61, #73, #166, .T. ) ;
#159 = CLOSED_SHELL ( 'NONE', ( #76, #22, #53, #128 ) ) ;
#160 = DIRECTION ( 'NONE',  ( 0.000000000000000000, 0.000000000000000000, 1.000000000000000000 ) ) ;
#161 = DIRECTION ( 'NONE',  ( -1.000000000000000000, -0.000000000000000000, -0.000000000000000000 ) ) ;
#162 = APPROVAL_DATE_TIME ( #83, #115 ) ;
#163 = COORDINATED_UNIVERSAL_TIME_OFFSET ( 8, 0, .AHEAD. ) ;
#164 = DATE_AND_TIME ( #21, #55 ) ;
#165 = PERSON_AND_ORGANIZATION_ROLE ( 'design_owner' ) ;
#166 = CIRCLE ( 'NONE', #113, 25.39999999999999858 ) ;
#167 = PERSON_AND_ORGANIZATION ( #50, #9 ) ;
#168 = APPROVAL_DATE_TIME ( #140, #48 ) ;
#169 = ORIENTED_EDGE ( 'NONE', *, *, #116, .F. ) ;
#170 = FACE_OUTER_BOUND ( 'NONE', #118, .T. ) ;
#171 = DIRECTION ( 'NONE',  ( -0.000000000000000000, 0.000000000000000000, 1.000000000000000000 ) ) ;
#172 = PLANE ( 'NONE',  #39 ) ;
#173 = CARTESIAN_POINT ( 'NONE',  ( -3.000000000000000000, 0.000000000000000000, 0.000000000000000000 ) ) ;
#174 = CARTESIAN_POINT ( 'NONE',  ( 0.000000000000000000, 0.000000000000000000, 0.000000000000000000 ) ) ;
#175 = CALENDAR_DATE ( 2020, 24, 12 ) ;
ENDSEC;
END-ISO-10303-21;
